ISO-10303-21;
HEADER;
FILE_DESCRIPTION (( 'STEP AP203' ),
    '1' );
FILE_NAME ('Entry thread seal - Metric and NPT.90 Metric.STEP',
    '2013-02-07T10:14:36',
    ( '' ),
    ( '' ),
    'SwSTEP 2.0',
    'SolidWorks 2012',
    '' );
FILE_SCHEMA (( 'CONFIG_CONTROL_DESIGN' ));
ENDSEC;

DATA;
#1 = FACE_OUTER_BOUND ( 'NONE', #90, .T. ) ;
#2 = FACE_OUTER_BOUND ( 'NONE', #85, .T. ) ;
#3 = FACE_BOUND ( 'NONE', #86, .T. ) ;
#4 = FACE_OUTER_BOUND ( 'NONE', #83, .T. ) ;
#5 = SHAPE_DEFINITION_REPRESENTATION ( #12, #13 ) ;
#6 = FACE_OUTER_BOUND ( 'NONE', #87, .T. ) ;
#7 = CYLINDRICAL_SURFACE ( 'NONE', #19, 55.00000000000000000 ) ;
#8 = FACE_OUTER_BOUND ( 'NONE', #91, .T. ) ;
#9 = CYLINDRICAL_SURFACE ( 'NONE', #190, 45.00000000000000000 ) ;
#10 = CYLINDRICAL_SURFACE ( 'NONE', #21, 55.00000000000000000 ) ;
#11 = DESIGN_CONTEXT ( 'detailed design', #177, 'design' ) ;
#12 = PRODUCT_DEFINITION_SHAPE ( 'NONE', 'NONE',  #193 ) ;
#13 = ADVANCED_BREP_SHAPE_REPRESENTATION ( 'Entry thread seal - Metric and NPT.90 Metric', ( #17, #191 ), #20 ) ;
#14 = UNCERTAINTY_MEASURE_WITH_UNIT (LENGTH_MEASURE( 1.000000000000000100E-005 ), #101, 'distance_accuracy_value', 'NONE');
#15 = FACE_BOUND ( 'NONE', #97, .T. ) ;
#16 = CYLINDRICAL_SURFACE ( 'NONE', #248, 45.00000000000000000 ) ;
#17 = MANIFOLD_SOLID_BREP ( 'Revolve1', #66 ) ;
#18 = AXIS2_PLACEMENT_3D ( 'NONE', #162, #161, #159 ) ;
#19 = AXIS2_PLACEMENT_3D ( 'NONE', #127, #134, #135 ) ;
#20 =( GEOMETRIC_REPRESENTATION_CONTEXT ( 3 ) GLOBAL_UNCERTAINTY_ASSIGNED_CONTEXT ( ( #14 ) ) GLOBAL_UNIT_ASSIGNED_CONTEXT ( ( #101, #99, #160 ) ) REPRESENTATION_CONTEXT ( 'NONE', 'WORKASPACE' ) );
#21 = AXIS2_PLACEMENT_3D ( 'NONE', #137, #138, #136 ) ;
#22 = AXIS2_PLACEMENT_3D ( 'NONE', #155, #182, #169 ) ;
#23 = AXIS2_PLACEMENT_3D ( 'NONE', #151, #150, #157 ) ;
#24 = AXIS2_PLACEMENT_3D ( 'NONE', #165, #114, #113 ) ;
#25 = AXIS2_PLACEMENT_3D ( 'NONE', #168, #167, #166 ) ;
#26 = AXIS2_PLACEMENT_3D ( 'NONE', #133, #140, #148 ) ;
#27 = AXIS2_PLACEMENT_3D ( 'NONE', #118, #121, #120 ) ;
#28 = AXIS2_PLACEMENT_3D ( 'NONE', #119, #110, #108 ) ;
#29 = EDGE_CURVE ( 'NONE', #92, #95, #57, .T. ) ;
#30 = EDGE_CURVE ( 'NONE', #89, #50, #98, .T. ) ;
#31 = EDGE_CURVE ( 'NONE', #96, #92, #88, .T. ) ;
#32 = EDGE_CURVE ( 'NONE', #50, #89, #55, .T. ) ;
#33 = EDGE_CURVE ( 'NONE', #93, #89, #53, .T. ) ;
#34 = EDGE_CURVE ( 'NONE', #42, #93, #54, .T. ) ;
#35 = EDGE_CURVE ( 'NONE', #92, #96, #49, .T. ) ;
#36 = EDGE_CURVE ( 'NONE', #94, #95, #48, .T. ) ;
#37 = EDGE_CURVE ( 'NONE', #95, #94, #52, .T. ) ;
#38 = EDGE_CURVE ( 'NONE', #96, #94, #46, .T. ) ;
#39 = EDGE_CURVE ( 'NONE', #93, #42, #45, .T. ) ;
#40 = EDGE_CURVE ( 'NONE', #42, #50, #47, .T. ) ;
#41 = VECTOR ( 'NONE', #156, 1000.000000000000000 ) ;
#42 = VERTEX_POINT ( 'NONE', #164 ) ;
#43 = FACE_OUTER_BOUND ( 'NONE', #84, .T. ) ;
#44 = VECTOR ( 'NONE', #112, 1000.000000000000000 ) ;
#45 = CIRCLE ( 'NONE', #18, 55.00000000000000000 ) ;
#46 = LINE ( 'NONE', #149, #44 ) ;
#47 = LINE ( 'NONE', #163, #41 ) ;
#48 = CIRCLE ( 'NONE', #23, 45.00000000000000000 ) ;
#49 = CIRCLE ( 'NONE', #24, 45.00000000000000000 ) ;
#50 = VERTEX_POINT ( 'NONE', #158 ) ;
#51 = VECTOR ( 'NONE', #123, 1000.000000000000000 ) ;
#52 = CIRCLE ( 'NONE', #22, 45.00000000000000000 ) ;
#53 = LINE ( 'NONE', #128, #51 ) ;
#54 = CIRCLE ( 'NONE', #25, 55.00000000000000000 ) ;
#55 = CIRCLE ( 'NONE', #26, 55.00000000000000000 ) ;
#56 = VECTOR ( 'NONE', #141, 1000.000000000000000 ) ;
#57 = LINE ( 'NONE', #139, #56 ) ;
#58 = ORIENTED_EDGE ( 'NONE', *, *, #35, .F. ) ;
#59 = ORIENTED_EDGE ( 'NONE', *, *, #29, .T. ) ;
#60 = ORIENTED_EDGE ( 'NONE', *, *, #38, .F. ) ;
#61 = ORIENTED_EDGE ( 'NONE', *, *, #30, .T. ) ;
#62 = ORIENTED_EDGE ( 'NONE', *, *, #34, .F. ) ;
#63 = ORIENTED_EDGE ( 'NONE', *, *, #39, .F. ) ;
#64 = ORIENTED_EDGE ( 'NONE', *, *, #35, .T. ) ;
#65 = ORIENTED_EDGE ( 'NONE', *, *, #31, .T. ) ;
#66 = CLOSED_SHELL ( 'NONE', ( #189, #185, #186, #184, #187, #188 ) ) ;
#67 = ORIENTED_EDGE ( 'NONE', *, *, #38, .T. ) ;
#68 = ORIENTED_EDGE ( 'NONE', *, *, #31, .F. ) ;
#69 = ORIENTED_EDGE ( 'NONE', *, *, #36, .T. ) ;
#70 = ORIENTED_EDGE ( 'NONE', *, *, #29, .F. ) ;
#71 = ORIENTED_EDGE ( 'NONE', *, *, #34, .T. ) ;
#72 = ORIENTED_EDGE ( 'NONE', *, *, #33, .T. ) ;
#73 = ORIENTED_EDGE ( 'NONE', *, *, #32, .F. ) ;
#74 = ORIENTED_EDGE ( 'NONE', *, *, #40, .F. ) ;
#75 = ORIENTED_EDGE ( 'NONE', *, *, #33, .F. ) ;
#76 = ORIENTED_EDGE ( 'NONE', *, *, #39, .T. ) ;
#77 = ORIENTED_EDGE ( 'NONE', *, *, #40, .T. ) ;
#78 = ORIENTED_EDGE ( 'NONE', *, *, #30, .F. ) ;
#79 = ORIENTED_EDGE ( 'NONE', *, *, #37, .F. ) ;
#80 = ORIENTED_EDGE ( 'NONE', *, *, #36, .F. ) ;
#81 = ORIENTED_EDGE ( 'NONE', *, *, #32, .T. ) ;
#82 = ORIENTED_EDGE ( 'NONE', *, *, #37, .T. ) ;
#83 = EDGE_LOOP ( 'NONE', ( #81, #61 ) ) ;
#84 = EDGE_LOOP ( 'NONE', ( #71, #72, #73, #74 ) ) ;
#85 = EDGE_LOOP ( 'NONE', ( #75, #76, #77, #78 ) ) ;
#86 = EDGE_LOOP ( 'NONE', ( #79, #80 ) ) ;
#87 = EDGE_LOOP ( 'NONE', ( #68, #67, #69, #70 ) ) ;
#88 = CIRCLE ( 'NONE', #27, 45.00000000000000000 ) ;
#89 = VERTEX_POINT ( 'NONE', #125 ) ;
#90 = EDGE_LOOP ( 'NONE', ( #60, #58, #59, #82 ) ) ;
#91 = EDGE_LOOP ( 'NONE', ( #62, #63 ) ) ;
#92 = VERTEX_POINT ( 'NONE', #116 ) ;
#93 = VERTEX_POINT ( 'NONE', #124 ) ;
#94 = VERTEX_POINT ( 'NONE', #115 ) ;
#95 = VERTEX_POINT ( 'NONE', #122 ) ;
#96 = VERTEX_POINT ( 'NONE', #117 ) ;
#97 = EDGE_LOOP ( 'NONE', ( #64, #65 ) ) ;
#98 = CIRCLE ( 'NONE', #28, 55.00000000000000000 ) ;
#99 =( NAMED_UNIT ( * ) PLANE_ANGLE_UNIT ( ) SI_UNIT ( $, .RADIAN. ) );
#100 = DIRECTION ( 'NONE',  ( -1.000000000000000000, -0.0000000000000000000, -0.0000000000000000000 ) ) ;
#101 =( LENGTH_UNIT ( ) NAMED_UNIT ( * ) SI_UNIT ( .MILLI., .METRE. ) );
#102 = PERSON_AND_ORGANIZATION_ROLE ( 'design_supplier' ) ;
#103 = PERSON_AND_ORGANIZATION_ROLE ( 'creator' ) ;
#104 = APPROVAL_ROLE ( '' ) ;
#105 = DATE_TIME_ROLE ( 'classification_date' ) ;
#106 = PERSON_AND_ORGANIZATION_ROLE ( 'classification_officer' ) ;
#107 = SECURITY_CLASSIFICATION_LEVEL ( 'unclassified' ) ;
#108 = DIRECTION ( 'NONE',  ( 0.0000000000000000000, 0.0000000000000000000, 1.000000000000000000 ) ) ;
#109 = APPROVAL_ROLE ( '' ) ;
#110 = DIRECTION ( 'NONE',  ( -1.000000000000000000, -0.0000000000000000000, -0.0000000000000000000 ) ) ;
#111 = APPROVAL_STATUS ( 'not_yet_approved' ) ;
#112 = DIRECTION ( 'NONE',  ( -1.000000000000000000, -0.0000000000000000000, -0.0000000000000000000 ) ) ;
#113 = DIRECTION ( 'NONE',  ( 0.0000000000000000000, 0.0000000000000000000, 1.000000000000000000 ) ) ;
#114 = DIRECTION ( 'NONE',  ( -1.000000000000000000, -0.0000000000000000000, -0.0000000000000000000 ) ) ;
#115 = CARTESIAN_POINT ( 'NONE',  ( -1.000000000000007800, 5.510910596163089600E-015, -45.00000000000000000 ) ) ;
#116 = CARTESIAN_POINT ( 'NONE',  ( 0.9999999999999940000, 0.0000000000000000000, 45.00000000000000000 ) ) ;
#117 = CARTESIAN_POINT ( 'NONE',  ( 0.9999999999999940000, 5.510910596163089600E-015, -45.00000000000000000 ) ) ;
#118 = CARTESIAN_POINT ( 'NONE',  ( 0.9999999999999940000, 0.0000000000000000000, 0.0000000000000000000 ) ) ;
#119 = CARTESIAN_POINT ( 'NONE',  ( -1.000000000000007800, 0.0000000000000000000, 0.0000000000000000000 ) ) ;
#120 = DIRECTION ( 'NONE',  ( 0.0000000000000000000, 0.0000000000000000000, 1.000000000000000000 ) ) ;
#121 = DIRECTION ( 'NONE',  ( -1.000000000000000000, -0.0000000000000000000, -0.0000000000000000000 ) ) ;
#122 = CARTESIAN_POINT ( 'NONE',  ( -1.000000000000007800, 0.0000000000000000000, 45.00000000000000000 ) ) ;
#123 = DIRECTION ( 'NONE',  ( -1.000000000000000000, -0.0000000000000000000, -0.0000000000000000000 ) ) ;
#124 = CARTESIAN_POINT ( 'NONE',  ( 0.9999999999999940000, 6.735557395310442600E-015, -55.00000000000000000 ) ) ;
#125 = CARTESIAN_POINT ( 'NONE',  ( -1.000000000000007800, 6.735557395310442600E-015, -55.00000000000000000 ) ) ;
#126 = DIRECTION ( 'NONE',  ( -1.000000000000000000, -0.0000000000000000000, -0.0000000000000000000 ) ) ;
#127 = CARTESIAN_POINT ( 'NONE',  ( -39.90653472252495200, 0.0000000000000000000, 0.0000000000000000000 ) ) ;
#128 = CARTESIAN_POINT ( 'NONE',  ( -39.90653472252495200, 6.735557395310442600E-015, -55.00000000000000000 ) ) ;
#129 = DIRECTION ( 'NONE',  ( 0.0000000000000000000, 0.0000000000000000000, -1.000000000000000000 ) ) ;
#130 = DIRECTION ( 'NONE',  ( 1.000000000000000000, 0.0000000000000000000, 0.0000000000000000000 ) ) ;
#131 = CARTESIAN_POINT ( 'NONE',  ( -1.000000000000006000, 55.00000000000000000, 0.0000000000000000000 ) ) ;
#132 = DIRECTION ( 'NONE',  ( 0.0000000000000000000, 0.0000000000000000000, 1.000000000000000000 ) ) ;
#133 = CARTESIAN_POINT ( 'NONE',  ( -1.000000000000007800, 0.0000000000000000000, 0.0000000000000000000 ) ) ;
#134 = DIRECTION ( 'NONE',  ( -1.000000000000000000, -0.0000000000000000000, -0.0000000000000000000 ) ) ;
#135 = DIRECTION ( 'NONE',  ( 0.0000000000000000000, 0.0000000000000000000, 1.000000000000000000 ) ) ;
#136 = DIRECTION ( 'NONE',  ( 0.0000000000000000000, 0.0000000000000000000, 1.000000000000000000 ) ) ;
#137 = CARTESIAN_POINT ( 'NONE',  ( -39.90653472252495200, 0.0000000000000000000, 0.0000000000000000000 ) ) ;
#138 = DIRECTION ( 'NONE',  ( -1.000000000000000000, -0.0000000000000000000, -0.0000000000000000000 ) ) ;
#139 = CARTESIAN_POINT ( 'NONE',  ( -39.90653472252495200, 0.0000000000000000000, 45.00000000000000000 ) ) ;
#140 = DIRECTION ( 'NONE',  ( -1.000000000000000000, -0.0000000000000000000, -0.0000000000000000000 ) ) ;
#141 = DIRECTION ( 'NONE',  ( -1.000000000000000000, -0.0000000000000000000, -0.0000000000000000000 ) ) ;
#142 = DIRECTION ( 'NONE',  ( -0.0000000000000000000, 0.0000000000000000000, 1.000000000000000000 ) ) ;
#143 = DIRECTION ( 'NONE',  ( -1.000000000000000000, 0.0000000000000000000, -0.0000000000000000000 ) ) ;
#144 = DIRECTION ( 'NONE',  ( 0.0000000000000000000, 0.0000000000000000000, 1.000000000000000000 ) ) ;
#145 = PLANE ( 'NONE',  #212 ) ;
#146 = CARTESIAN_POINT ( 'NONE',  ( -39.90653472252495200, 0.0000000000000000000, 0.0000000000000000000 ) ) ;
#147 = CARTESIAN_POINT ( 'NONE',  ( 0.9999999999999940000, 45.00000000000000000, 0.0000000000000000000 ) ) ;
#148 = DIRECTION ( 'NONE',  ( 0.0000000000000000000, 0.0000000000000000000, 1.000000000000000000 ) ) ;
#149 = CARTESIAN_POINT ( 'NONE',  ( -39.90653472252495200, 5.510910596163089600E-015, -45.00000000000000000 ) ) ;
#150 = DIRECTION ( 'NONE',  ( -1.000000000000000000, -0.0000000000000000000, -0.0000000000000000000 ) ) ;
#151 = CARTESIAN_POINT ( 'NONE',  ( -1.000000000000007800, 0.0000000000000000000, 0.0000000000000000000 ) ) ;
#152 = PLANE ( 'NONE',  #249 ) ;
#153 = DATE_TIME_ROLE ( 'creation_date' ) ;
#154 = APPROVAL_STATUS ( 'not_yet_approved' ) ;
#155 = CARTESIAN_POINT ( 'NONE',  ( -1.000000000000007800, 0.0000000000000000000, 0.0000000000000000000 ) ) ;
#156 = DIRECTION ( 'NONE',  ( -1.000000000000000000, -0.0000000000000000000, -0.0000000000000000000 ) ) ;
#157 = DIRECTION ( 'NONE',  ( 0.0000000000000000000, 0.0000000000000000000, 1.000000000000000000 ) ) ;
#158 = CARTESIAN_POINT ( 'NONE',  ( -1.000000000000007800, 0.0000000000000000000, 55.00000000000000000 ) ) ;
#159 = DIRECTION ( 'NONE',  ( 0.0000000000000000000, 0.0000000000000000000, 1.000000000000000000 ) ) ;
#160 =( NAMED_UNIT ( * ) SI_UNIT ( $, .STERADIAN. ) SOLID_ANGLE_UNIT ( ) );
#161 = DIRECTION ( 'NONE',  ( -1.000000000000000000, -0.0000000000000000000, -0.0000000000000000000 ) ) ;
#162 = CARTESIAN_POINT ( 'NONE',  ( 0.9999999999999940000, 0.0000000000000000000, 0.0000000000000000000 ) ) ;
#163 = CARTESIAN_POINT ( 'NONE',  ( -39.90653472252495200, 0.0000000000000000000, 55.00000000000000000 ) ) ;
#164 = CARTESIAN_POINT ( 'NONE',  ( 0.9999999999999940000, 0.0000000000000000000, 55.00000000000000000 ) ) ;
#165 = CARTESIAN_POINT ( 'NONE',  ( 0.9999999999999940000, 0.0000000000000000000, 0.0000000000000000000 ) ) ;
#166 = DIRECTION ( 'NONE',  ( 0.0000000000000000000, 0.0000000000000000000, 1.000000000000000000 ) ) ;
#167 = DIRECTION ( 'NONE',  ( -1.000000000000000000, -0.0000000000000000000, -0.0000000000000000000 ) ) ;
#168 = CARTESIAN_POINT ( 'NONE',  ( 0.9999999999999940000, 0.0000000000000000000, 0.0000000000000000000 ) ) ;
#169 = DIRECTION ( 'NONE',  ( 0.0000000000000000000, 0.0000000000000000000, 1.000000000000000000 ) ) ;
#170 = APPLICATION_PROTOCOL_DEFINITION ( 'international standard', 'config_control_design', 1994, #171 ) ;
#171 = APPLICATION_CONTEXT ( 'configuration controlled 3d designs of mechanical parts and assemblies' ) ;
#172 = CARTESIAN_POINT ( 'NONE',  ( 0.0000000000000000000, 0.0000000000000000000, 0.0000000000000000000 ) ) ;
#173 = DIRECTION ( 'NONE',  ( 0.0000000000000000000, 0.0000000000000000000, 1.000000000000000000 ) ) ;
#174 = DIRECTION ( 'NONE',  ( 1.000000000000000000, 0.0000000000000000000, 0.0000000000000000000 ) ) ;
#175 = MECHANICAL_CONTEXT ( 'NONE', #171, 'mechanical' ) ;
#176 = PERSON_AND_ORGANIZATION_ROLE ( 'design_owner' ) ;
#177 = APPLICATION_CONTEXT ( 'configuration controlled 3d designs of mechanical parts and assemblies' ) ;
#178 = APPLICATION_PROTOCOL_DEFINITION ( 'international standard', 'config_control_design', 1994, #177 ) ;
#179 = APPROVAL_STATUS ( 'not_yet_approved' ) ;
#180 = APPROVAL_ROLE ( '' ) ;
#181 = PERSON_AND_ORGANIZATION_ROLE ( 'creator' ) ;
#182 = DIRECTION ( 'NONE',  ( -1.000000000000000000, -0.0000000000000000000, -0.0000000000000000000 ) ) ;
#183 = CARTESIAN_POINT ( 'NONE',  ( -39.90653472252495200, 0.0000000000000000000, 0.0000000000000000000 ) ) ;
#184 = ADVANCED_FACE ( 'NONE', ( #3, #4 ), #152, .F. ) ;
#185 = ADVANCED_FACE ( 'NONE', ( #43 ), #10, .T. ) ;
#186 = ADVANCED_FACE ( 'NONE', ( #2 ), #7, .T. ) ;
#187 = ADVANCED_FACE ( 'NONE', ( #1 ), #16, .F. ) ;
#188 = ADVANCED_FACE ( 'NONE', ( #8, #15 ), #145, .F. ) ;
#189 = ADVANCED_FACE ( 'NONE', ( #6 ), #9, .F. ) ;
#190 = AXIS2_PLACEMENT_3D ( 'NONE', #183, #100, #144 ) ;
#191 = AXIS2_PLACEMENT_3D ( 'NONE', #172, #173, #174 ) ;
#192 = CC_DESIGN_PERSON_AND_ORGANIZATION_ASSIGNMENT ( #214, #176, ( #210 ) ) ;
#193 = PRODUCT_DEFINITION ( 'UNKNOWN', '', #198, #11 ) ;
#194 = APPROVAL ( #179, 'UNSPECIFIED' ) ;
#195 = CC_DESIGN_APPROVAL ( #194, ( #193 ) ) ;
#196 = CC_DESIGN_PERSON_AND_ORGANIZATION_ASSIGNMENT ( #222, #181, ( #193 ) ) ;
#197 = CC_DESIGN_DATE_AND_TIME_ASSIGNMENT ( #226, #153, ( #193 ) ) ;
#198 = PRODUCT_DEFINITION_FORMATION_WITH_SPECIFIED_SOURCE ( 'ANY', '', #210, .NOT_KNOWN. ) ;
#199 = APPROVAL ( #154, 'UNSPECIFIED' ) ;
#200 = CC_DESIGN_APPROVAL ( #199, ( #198 ) ) ;
#201 = CC_DESIGN_PERSON_AND_ORGANIZATION_ASSIGNMENT ( #234, #103, ( #198 ) ) ;
#202 = CC_DESIGN_PERSON_AND_ORGANIZATION_ASSIGNMENT ( #235, #102, ( #198 ) ) ;
#203 = SECURITY_CLASSIFICATION ( '', '', #107 ) ;
#204 = CC_DESIGN_PERSON_AND_ORGANIZATION_ASSIGNMENT ( #236, #106, ( #203 ) ) ;
#205 = CC_DESIGN_DATE_AND_TIME_ASSIGNMENT ( #240, #105, ( #203 ) ) ;
#206 = APPROVAL ( #111, 'UNSPECIFIED' ) ;
#207 = CC_DESIGN_APPROVAL ( #206, ( #203 ) ) ;
#208 = CC_DESIGN_SECURITY_CLASSIFICATION ( #203, ( #198 ) ) ;
#209 = PRODUCT_RELATED_PRODUCT_CATEGORY ( 'detail', '', ( #210 ) ) ;
#210 = PRODUCT ( 'Entry thread seal - Metric and NPT.90 Metric', 'Entry thread seal - Metric and NPT.90 Metric', '', ( #175 ) ) ;
#211 = PERSON ( 'UNSPECIFIED', 'UNSPECIFIED', 'UNSPECIFIED', ('UNSPECIFIED'), ('UNSPECIFIED'), ('UNSPECIFIED') ) ;
#212 = AXIS2_PLACEMENT_3D ( 'NONE', #147, #143, #142 ) ;
#213 = ORGANIZATION ( 'UNSPECIFIED', 'UNSPECIFIED', '' ) ;
#214 = PERSON_AND_ORGANIZATION ( #211, #213 ) ;
#215 = PERSON_AND_ORGANIZATION ( #211, #213 ) ;
#216 = APPROVAL_PERSON_ORGANIZATION ( #215, #194, #180 ) ;
#217 = COORDINATED_UNIVERSAL_TIME_OFFSET ( 0, 0, .AHEAD. ) ;
#218 = LOCAL_TIME ( 10, 14, 36.00000000000000000, #217 ) ;
#219 = CALENDAR_DATE ( 2013, 7, 2 ) ;
#220 = DATE_AND_TIME ( #219, #218 ) ;
#221 = APPROVAL_DATE_TIME ( #220, #194 ) ;
#222 = PERSON_AND_ORGANIZATION ( #211, #213 ) ;
#223 = COORDINATED_UNIVERSAL_TIME_OFFSET ( 0, 0, .AHEAD. ) ;
#224 = LOCAL_TIME ( 10, 14, 36.00000000000000000, #223 ) ;
#225 = CALENDAR_DATE ( 2013, 7, 2 ) ;
#226 = DATE_AND_TIME ( #225, #224 ) ;
#227 = PERSON_AND_ORGANIZATION ( #211, #213 ) ;
#228 = APPROVAL_PERSON_ORGANIZATION ( #227, #199, #104 ) ;
#229 = COORDINATED_UNIVERSAL_TIME_OFFSET ( 0, 0, .AHEAD. ) ;
#230 = LOCAL_TIME ( 10, 14, 36.00000000000000000, #229 ) ;
#231 = CALENDAR_DATE ( 2013, 7, 2 ) ;
#232 = DATE_AND_TIME ( #231, #230 ) ;
#233 = APPROVAL_DATE_TIME ( #232, #199 ) ;
#234 = PERSON_AND_ORGANIZATION ( #211, #213 ) ;
#235 = PERSON_AND_ORGANIZATION ( #211, #213 ) ;
#236 = PERSON_AND_ORGANIZATION ( #211, #213 ) ;
#237 = COORDINATED_UNIVERSAL_TIME_OFFSET ( 0, 0, .AHEAD. ) ;
#238 = LOCAL_TIME ( 10, 14, 36.00000000000000000, #237 ) ;
#239 = CALENDAR_DATE ( 2013, 7, 2 ) ;
#240 = DATE_AND_TIME ( #239, #238 ) ;
#241 = PERSON_AND_ORGANIZATION ( #211, #213 ) ;
#242 = APPROVAL_PERSON_ORGANIZATION ( #241, #206, #109 ) ;
#243 = COORDINATED_UNIVERSAL_TIME_OFFSET ( 0, 0, .AHEAD. ) ;
#244 = LOCAL_TIME ( 10, 14, 36.00000000000000000, #243 ) ;
#245 = CALENDAR_DATE ( 2013, 7, 2 ) ;
#246 = DATE_AND_TIME ( #245, #244 ) ;
#247 = APPROVAL_DATE_TIME ( #246, #206 ) ;
#248 = AXIS2_PLACEMENT_3D ( 'NONE', #146, #126, #132 ) ;
#249 = AXIS2_PLACEMENT_3D ( 'NONE', #131, #130, #129 ) ;
ENDSEC;
END-ISO-10303-21;
